  0
SECTION
  2
HEADER
  9
$ACADVER
  1
AC1009
  9
$MEASUREMENT
  70
1
  9
$DWGCODEPAGE
  3
ANSI_1250
  9
$DIMALT
  70
0
  9
$DIMALTD
  70
4
  9
$DIMALTF
  40
0.394
  9
$DIMALTTD
  70
4
  9
$DIMALTTZ
  70
0
  9
$DIMALTU
  70
8
  9
$DIMALTZ
  70
0
  9
$DIMAPOST
  1

  9
$DIMASO
  70
1
  9
$DIMASZ
  40
10
  9
$DIMAUNIT
  70
0
  9
$DIMBLK
  1

  9
$DIMBLK1
  1

  9
$DIMBLK2
  1

  9
$DIMCEN
  40
2.5
  9
$DIMCLRD
  70
0
  9
$DIMCLRE
  70
0
  9
$DIMCLRT
  70
0
  9
$DIMDEC
  70
4
  9
$DIMDLE
  40
0
  9
$DIMDLI
  40
3.75
  9
$DIMEXE
  40
1.25
  9
$DIMEXO
  40
0.625
  9
$DIMFIT
  70
3
  9
$DIMGAP
  40
0.9
  9
$DIMJUST
  70
0
  9
$DIMLFAC
  40
1.0
  9
$DIMLIM
  70
0
  9
$DIMPOST
  1

  9
$DIMRND
  40
0
  9
$DIMSAH
  70
0
  9
$DIMSCALE
  40
10
  9
$DIMSD1
  70
0
  9
$DIMSD2
  70
0
  9
$DIMSE1
  70
0
  9
$DIMSE2
  70
0
  9
$DIMSHO
  70
1
  9
$DIMSOXD
  70
0
  9
$DIMSTYLE
  2
STANDARD
  9
$DIMTAD
  70
1
  9
$DIMTDEC
  70
4
  9
$DIMTFAC
  40
1
  9
$DIMTIH
  70
0
  9
$DIMTIX
  70
0
  9
$DIMTM
  40
0
  9
$DIMTOFL
  70
1
  9
$DIMTOH
  70
0
  9
$DIMTOL
  70
0
  9
$DIMTOLJ
  70
1
  9
$DIMTP
  40
0
  9
$DIMTSZ
  40
0
  9
$DIMTVP
  40
1
  9
$DIMTXSTY
  7
STANDARD
  9
$DIMTXT
  40
4.0
  9
$DIMTZIN
  70
0
  9
$DIMUNIT
  70
2
  9
$DIMUPT
  70
0
  9
$DIMZIN
  70
8
  0
ENDSEC
  0
SECTION
  2
TABLES
  0
TABLE
  2
LTYPE
  70
5
  0
LTYPE
  2
CONTINUOUS
  70
64
  3
_____
  72
65
  73
0
  40
0,00
  0
LTYPE
  2
HIDDEN
  70
64
  3
__ __
  72
65
  73
2
  40
0,75
  49
0,50
  49
-0,25
  0
LTYPE
  2
DOT
  70
64
  3
. .
  72
65
  73
2
  40
0,25
  49
0,00
  49
-0,25
  0
LTYPE
  2
DASHDOT
  70
64
  3
_ . _
  72
65
  73
4
  40
1,00
  49
0,50
  49
-0,25
  49
0,00
  49
-0,25
  0
LTYPE
  2
PHANTOM
  70
64
  3
__ _ _ __
  72
65
  73
6
  40
2,50
  49
1,25
  49
-0,25
  49
0,25
  49
-0,25
  49
0,25
  49
-0,25
  0
ENDTAB
  0
TABLE
  2
LAYER
  70
5
  0
LAYER
  2
EIGENE_EINRICHTUNG
  70
0
  62
7
  6
CONTINUOUS
  0
LAYER
  2
DETAILS
  70
0
  62
7
  6
CONTINUOUS
  0
LAYER
  2
ANSCHLUSSSTUTZEN
  70
0
  62
7
  6
CONTINUOUS
  0
LAYER
  2
BEDIENUNGSFREIRAUM
  70
0
  62
7
  6
CONTINUOUS
  0
LAYER
  2
BESCHREIBUNGEN
  70
0
  62
7
  6
CONTINUOUS
  0
ENDTAB
  0
TABLE
  2
DIMSTYLE
  70
 1
  0
DIMSTYLE
  2
STANDARD
  70
 0
  3

  4

  5

  6

  7

 40
10
 41
10
 42
0.625
 43
3.75
 44
1.25
 45
0
 46
0
 47
0
 48
0
140
4.0
141
2.5
142
0
143
0.394
144
1.0
145
1
146
1
147
0.9
 71
0
 72
0
 73
0
 74
0
 75
0
 76
0
 77
1
 78
8
170
0
171
4
172
1
173
0
174
0
175
0
176
0
177
0
178
0
270
2
271
4
272
4
273
8
274
4
275
0
280
0
281
0
282
0
283
1
284
0
285
0
286
0
287
3
288
0
  0
ENDTAB
  0
TABLE
  2
STYLE
 70
     1
  0
STYLE
  2
STANDARD
 70
     0
 40
0.0
 41
1.0
 50
0.0
 71
     0
 42
0.2
  3
txt
  4

  0
ENDTAB
  0
TABLE
  2
VPORT
  70
1
  0
VPORT
  2
*ACTIVE
  70
0
  10
0
  20
0
  11
1
  21
1
  12
400
  22
1367,8475
 13
0.0
 23
0.0
 14
1.0
 24
1.0
 15
0.0
 25
0.0
  16
0
  26
0
  36
1
  17
0
  27
0
  37
0
  40
7180,137
  41
1
 42
50.0
 43
0.0
 44
0.0
 50
0.0
 51
0.0
 71
 0
 72
   100
 73
 1
 74
 1
 75
 0
 76
 0
 77
 0
 78
 0
  0
ENDTAB
  0
ENDSEC
  0
SECTION
  2
BLOCKS
  0
BLOCK
  2
GERAT_1-21712-112341_M
  8
EIGENE_EINRICHTUNG
  70
64
  10
0
  20
0
  0
3DFACE
  8
EIGENE_EINRICHTUNG
  10
0,00
  20
0,00
  30
0
  11
0,00
  21
2000,00
  31
0
  12
800,00
  22
2000,00
  32
0
  13
800,00
  23
0,00
  33
0
  0
3DFACE
  8
EIGENE_EINRICHTUNG
  10
0,00
  20
0,00
  30
0
  11
0,00
  21
2000,00
  31
0
  12
800,00
  22
2000,00
  32
0
  13
800,00
  23
0,00
  33
0
  0
3DFACE
  8
EIGENE_EINRICHTUNG
  10
0,00
  20
0,00
  30
0
  11
0,00
  21
2000,00
  31
0
  12
0,00
  22
2000,00
  32
0
  13
0,00
  23
0,00
  33
0
  0
3DFACE
  8
EIGENE_EINRICHTUNG
  10
800,00
  20
2000,00
  30
0
  11
800,00
  21
0,00
  31
0
  12
800,00
  22
0,00
  32
0
  13
800,00
  23
2000,00
  33
0
  0
3DFACE
  8
EIGENE_EINRICHTUNG
  10
0,00
  20
2000,00
  30
0
  11
800,00
  21
2000,00
  31
0
  12
800,00
  22
2000,00
  32
0
  13
0,00
  23
2000,00
  33
0
  0
3DFACE
  8
EIGENE_EINRICHTUNG
  10
0,00
  20
0,00
  30
0
  11
800,00
  21
0,00
  31
0
  12
800,00
  22
0,00
  32
0
  13
0,00
  23
0,00
  33
0
  0
LINE
  8
DETAILS
  6
CONTINOUS
  10
400,00
  20
2000,00
  30
0
  11
480,00
  21
1500,00
  31
0
  0
LINE
  8
DETAILS
  6
CONTINOUS
  10
480,00
  20
400,00
  30
0
  11
480,00
  21
500,00
  31
0
  0
LINE
  8
DETAILS
  6
CONTINOUS
  10
480,00
  20
400,00
  30
0
  11
0,00
  21
400,00
  31
0
  0
LINE
  8
DETAILS
  6
CONTINOUS
  10
640,00
  20
1000,00
  30
0
  11
0,00
  21
1000,00
  31
0
  0
LINE
  8
DETAILS
  6
CONTINOUS
  10
320,00
  20
1000,00
  30
0
  11
800,00
  21
1000,00
  31
0
  0
3DFACE
  8
DETAILS
  70
12
  10
480,00
  20
1500,00
  30
0
  11
720,00
  21
1250,00
  12
720,00
  22
750,00
  32
0
  13
720,00
  23
750,00
  33
0
  0
3DFACE
  8
DETAILS
  70
13
  10
480,00
  20
1500,00
  30
0
  11
720,00
  21
750,00
  12
480,00
  22
500,00
  32
0
  13
480,00
  23
500,00
  33
0
  0
3DFACE
  8
DETAILS
  70
13
  10
480,00
  20
1500,00
  30
0
  11
480,00
  21
500,00
  12
240,00
  22
750,00
  32
0
  13
240,00
  23
750,00
  33
0
  0
3DFACE
  8
DETAILS
  70
13
  10
480,00
  20
1500,00
  30
0
  11
240,00
  21
750,00
  12
240,00
  22
1000,00
  32
0
  13
240,00
  23
1000,00
  33
0
  0
3DFACE
  8
DETAILS
  70
5
  10
480,00
  20
1500,00
  30
0
  11
240,00
  21
1000,00
  12
240,00
  22
1250,00
  32
0
  13
240,00
  23
1250,00
  33
0
  0
CIRCLE
  8
DETAILS
  10
600,00
  20
200,00
  30
0
  40
120,00
  210
0,00
  220
0,00
  230
1,00
  0
LINE
  8
DETAILS
  6
CONTINOUS
  10
514,56
  20
116,00
  30
0
  11
547,20
  21
308,00
  31
0
  0
LINE
  8
DETAILS
  6
CONTINOUS
  10
685,44
  20
116,00
  30
0
  11
652,80
  21
308,00
  31
0
  0
CIRCLE
  8
DETAILS
  10
160,00
  20
560,00
  30
0
  40
120,00
  210
0,00
  220
0,00
  230
1,00
  0
LINE
  8
DETAILS
  6
CONTINOUS
  10
76,00
  20
645,44
  30
0
  11
268,00
  21
612,80
  31
0
  0
LINE
  8
DETAILS
  6
CONTINOUS
  10
76,00
  20
474,56
  30
0
  11
268,00
  21
507,20
  31
0
  0
3DFACE
  8
DETAILS
  10
72,00
  20
80,00
  30
0
  11
72,00
  21
320,00
  31
0
  12
120,00
  22
320,00
  32
0
  13
120,00
  23
80,00
  33
0
  0
LINE
  8
DETAILS
  6
CONTINOUS
  10
96,00
  20
80,00
  30
0
  11
120,00
  21
200,00
  31
0
  0
LINE
  8
DETAILS
  6
CONTINOUS
  10
96,00
  20
320,00
  30
0
  11
120,00
  21
200,00
  31
0
  0
3DFACE
  8
DETAILS
  10
680,00
  20
1680,00
  30
0
  11
680,00
  21
1920,00
  31
0
  12
728,00
  22
1920,00
  32
0
  13
728,00
  23
1680,00
  33
0
  0
LINE
  8
DETAILS
  6
CONTINOUS
  10
704,00
  20
1680,00
  30
0
  11
728,00
  21
1800,00
  31
0
  0
LINE
  8
DETAILS
  6
CONTINOUS
  10
704,00
  20
1920,00
  30
0
  11
728,00
  21
1800,00
  31
0
  0
3DFACE
  8
DETAILS
  10
300,00
  20
80,00
  30
0
  11
300,00
  21
320,00
  31
0
  12
340,00
  22
320,00
  32
0
  13
340,00
  23
80,00
  33
0
  0
LINE
  8
DETAILS
  6
CONTINOUS
  10
300,00
  20
80,00
  30
0
  11
340,00
  21
320,00
  31
0
  0
CIRCLE
  8
DETAILS
  10
320,00
  20
308,00
  30
0
  40
8,00
  210
0,00
  220
0,00
  230
1,00
  0
LINE
  8
DETAILS
  6
CONTINOUS
  10
314,40
  20
308,00
  30
0
  11
325,60
  21
308,00
  31
0
  0
LINE
  8
DETAILS
  6
CONTINOUS
  10
320,00
  20
302,40
  30
0
  11
320,00
  21
313,60
  31
0
  0
3DFACE
  8
ANSCHLUSSSTUTZEN
  10
0,00
  20
75,00
  30
0
  11
-75,00
  21
75,00
  31
0
  12
-75,00
  22
355,00
  32
0
  13
0,00
  23
355,00
  33
0
  0
3DFACE
  8
ANSCHLUSSSTUTZEN
  10
0,00
  20
485,00
  30
0
  11
0,00
  21
835,00
  31
0
  12
-110,00
  22
800,00
  32
0
  13
-110,00
  23
520,00
  33
0
  0
3DFACE
  8
ANSCHLUSSSTUTZEN
  10
-110,00
  20
520,00
  30
0
  11
-130,00
  21
520,00
  31
0
  12
-130,00
  22
800,00
  32
0
  13
-110,00
  23
800,00
  33
0
  0
LINE
  8
EIGENE_EINRICHTUNG
  6
CONTINOUS
  10
0,00
  20
440,00
  30
0
  11
-50,00
  21
440,00
  31
0
  0
LINE
  8
BEDIENUNGSFREIRAUM
  6
CONTINOUS
  10
-300,00
  20
0,00
  30
0
  11
0,00
  21
0,00
  31
0
  0
LINE
  8
BEDIENUNGSFREIRAUM
  6
CONTINOUS
  10
-300,00
  20
0,00
  30
0
  11
-300,00
  21
0,00
  31
0
  0
LINE
  8
BEDIENUNGSFREIRAUM
  6
CONTINOUS
  10
-300,00
  20
2000,00
  30
0
  11
0,00
  21
2000,00
  31
0
  0
LINE
  8
BEDIENUNGSFREIRAUM
  6
CONTINOUS
  10
-300,00
  20
2000,00
  30
0
  11
-300,00
  21
2000,00
  31
0
  0
LINE
  8
BEDIENUNGSFREIRAUM
  6
CONTINOUS
  10
-300,00
  20
0,00
  30
0
  11
-300,00
  21
2000,00
  31
0
  0
LINE
  8
BEDIENUNGSFREIRAUM
  6
CONTINOUS
  10
-300,00
  20
1200,00
  30
0
  11
-300,00
  21
1825,00
  31
0
  0
LINE
  8
BEDIENUNGSFREIRAUM
  6
CONTINOUS
  10
-300,00
  20
1000,00
  30
0
  11
-300,00
  21
1625,00
  31
0
  0
LINE
  8
BEDIENUNGSFREIRAUM
  6
CONTINOUS
  10
-300,00
  20
800,00
  30
0
  11
-300,00
  21
1425,00
  31
0
  0
LINE
  8
BEDIENUNGSFREIRAUM
  6
CONTINOUS
  10
-300,00
  20
600,00
  30
0
  11
-300,00
  21
1225,00
  31
0
  0
LINE
  8
BEDIENUNGSFREIRAUM
  6
CONTINOUS
  10
-300,00
  20
400,00
  30
0
  11
-300,00
  21
1025,00
  31
0
  0
LINE
  8
BEDIENUNGSFREIRAUM
  6
CONTINOUS
  10
-300,00
  20
200,00
  30
0
  11
-300,00
  21
825,00
  31
0
  0
LINE
  8
BEDIENUNGSFREIRAUM
  6
CONTINOUS
  10
-300,00
  20
0,00
  30
0
  11
-300,00
  21
625,00
  31
0
  0
LINE
  8
BEDIENUNGSFREIRAUM
  6
CONTINOUS
  10
-300,00
  20
0,00
  30
0
  11
-300,00
  21
425,00
  31
0
  0
LINE
  8
BEDIENUNGSFREIRAUM
  6
CONTINOUS
  10
-300,00
  20
0,00
  30
0
  11
-300,00
  21
225,00
  31
0
  0
LINE
  8
BEDIENUNGSFREIRAUM
  6
CONTINOUS
  10
-300,00
  20
0,00
  30
0
  11
-300,00
  21
25,00
  31
0
  0
LINE
  8
BEDIENUNGSFREIRAUM
  6
CONTINOUS
  10
-300,00
  20
1800,00
  30
0
  11
-100,00
  21
2000,00
  31
0
  0
LINE
  8
BEDIENUNGSFREIRAUM
  6
CONTINOUS
  10
-300,00
  20
1600,00
  30
0
  11
0,00
  21
1900,00
  31
0
  0
LINE
  8
BEDIENUNGSFREIRAUM
  6
CONTINOUS
  10
-300,00
  20
1400,00
  30
0
  11
0,00
  21
1700,00
  31
0
  0
LINE
  8
BEDIENUNGSFREIRAUM
  6
CONTINOUS
  10
-300,00
  20
1200,00
  30
0
  11
0,00
  21
1500,00
  31
0
  0
LINE
  8
BEDIENUNGSFREIRAUM
  6
CONTINOUS
  10
-300,00
  20
1000,00
  30
0
  11
0,00
  21
1300,00
  31
0
  0
LINE
  8
BEDIENUNGSFREIRAUM
  6
CONTINOUS
  10
-300,00
  20
800,00
  30
0
  11
0,00
  21
1100,00
  31
0
  0
LINE
  8
BEDIENUNGSFREIRAUM
  6
CONTINOUS
  10
-300,00
  20
600,00
  30
0
  11
0,00
  21
900,00
  31
0
  0
LINE
  8
BEDIENUNGSFREIRAUM
  6
CONTINOUS
  10
-300,00
  20
400,00
  30
0
  11
0,00
  21
700,00
  31
0
  0
LINE
  8
BEDIENUNGSFREIRAUM
  6
CONTINOUS
  10
-300,00
  20
200,00
  30
0
  11
0,00
  21
500,00
  31
0
  0
LINE
  8
BEDIENUNGSFREIRAUM
  6
CONTINOUS
  10
-300,00
  20
0,00
  30
0
  11
0,00
  21
300,00
  31
0
  0
LINE
  8
BEDIENUNGSFREIRAUM
  6
CONTINOUS
  10
-100,00
  20
0,00
  30
0
  11
0,00
  21
100,00
  31
0
  0
LINE
  8
BEDIENUNGSFREIRAUM
  6
CONTINOUS
  10
0,00
  20
2000,00
  30
0
  11
-125,00
  21
2000,00
  31
0
  0
LINE
  8
BEDIENUNGSFREIRAUM
  6
CONTINOUS
  10
1100,00
  20
0,00
  30
0
  11
800,00
  21
0,00
  31
0
  0
LINE
  8
BEDIENUNGSFREIRAUM
  6
CONTINOUS
  10
1100,00
  20
0,00
  30
0
  11
1100,00
  21
0,00
  31
0
  0
LINE
  8
BEDIENUNGSFREIRAUM
  6
CONTINOUS
  10
1100,00
  20
2000,00
  30
0
  11
800,00
  21
2000,00
  31
0
  0
LINE
  8
BEDIENUNGSFREIRAUM
  6
CONTINOUS
  10
1100,00
  20
2000,00
  30
0
  11
1100,00
  21
2000,00
  31
0
  0
LINE
  8
BEDIENUNGSFREIRAUM
  6
CONTINOUS
  10
1100,00
  20
0,00
  30
0
  11
1100,00
  21
2000,00
  31
0
  0
LINE
  8
BEDIENUNGSFREIRAUM
  6
CONTINOUS
  10
1100,00
  20
1800,00
  30
0
  11
1100,00
  21
2000,00
  31
0
  0
LINE
  8
BEDIENUNGSFREIRAUM
  6
CONTINOUS
  10
1100,00
  20
1600,00
  30
0
  11
1100,00
  21
2000,00
  31
0
  0
LINE
  8
BEDIENUNGSFREIRAUM
  6
CONTINOUS
  10
1100,00
  20
1400,00
  30
0
  11
1100,00
  21
2000,00
  31
0
  0
LINE
  8
BEDIENUNGSFREIRAUM
  6
CONTINOUS
  10
1100,00
  20
1200,00
  30
0
  11
1100,00
  21
1825,00
  31
0
  0
LINE
  8
BEDIENUNGSFREIRAUM
  6
CONTINOUS
  10
1100,00
  20
1000,00
  30
0
  11
1100,00
  21
1625,00
  31
0
  0
LINE
  8
BEDIENUNGSFREIRAUM
  6
CONTINOUS
  10
1100,00
  20
800,00
  30
0
  11
1100,00
  21
1425,00
  31
0
  0
LINE
  8
BEDIENUNGSFREIRAUM
  6
CONTINOUS
  10
1100,00
  20
600,00
  30
0
  11
1100,00
  21
1225,00
  31
0
  0
LINE
  8
BEDIENUNGSFREIRAUM
  6
CONTINOUS
  10
1100,00
  20
400,00
  30
0
  11
1100,00
  21
1025,00
  31
0
  0
LINE
  8
BEDIENUNGSFREIRAUM
  6
CONTINOUS
  10
1100,00
  20
200,00
  30
0
  11
1100,00
  21
825,00
  31
0
  0
LINE
  8
BEDIENUNGSFREIRAUM
  6
CONTINOUS
  10
1100,00
  20
0,00
  30
0
  11
1100,00
  21
625,00
  31
0
  0
LINE
  8
BEDIENUNGSFREIRAUM
  6
CONTINOUS
  10
1100,00
  20
1800,00
  30
0
  11
900,00
  21
2000,00
  31
0
  0
LINE
  8
BEDIENUNGSFREIRAUM
  6
CONTINOUS
  10
1100,00
  20
1600,00
  30
0
  11
800,00
  21
1900,00
  31
0
  0
LINE
  8
BEDIENUNGSFREIRAUM
  6
CONTINOUS
  10
1100,00
  20
1400,00
  30
0
  11
800,00
  21
1700,00
  31
0
  0
LINE
  8
BEDIENUNGSFREIRAUM
  6
CONTINOUS
  10
1100,00
  20
1200,00
  30
0
  11
800,00
  21
1500,00
  31
0
  0
LINE
  8
BEDIENUNGSFREIRAUM
  6
CONTINOUS
  10
1100,00
  20
1000,00
  30
0
  11
800,00
  21
1300,00
  31
0
  0
LINE
  8
BEDIENUNGSFREIRAUM
  6
CONTINOUS
  10
1100,00
  20
800,00
  30
0
  11
800,00
  21
1100,00
  31
0
  0
LINE
  8
BEDIENUNGSFREIRAUM
  6
CONTINOUS
  10
1100,00
  20
600,00
  30
0
  11
800,00
  21
900,00
  31
0
  0
LINE
  8
BEDIENUNGSFREIRAUM
  6
CONTINOUS
  10
1100,00
  20
400,00
  30
0
  11
800,00
  21
700,00
  31
0
  0
LINE
  8
BEDIENUNGSFREIRAUM
  6
CONTINOUS
  10
1100,00
  20
200,00
  30
0
  11
800,00
  21
500,00
  31
0
  0
LINE
  8
BEDIENUNGSFREIRAUM
  6
CONTINOUS
  10
1100,00
  20
0,00
  30
0
  11
800,00
  21
300,00
  31
0
  0
LINE
  8
BEDIENUNGSFREIRAUM
  6
CONTINOUS
  10
900,00
  20
0,00
  30
0
  11
800,00
  21
100,00
  31
0
  0
LINE
  8
BEDIENUNGSFREIRAUM
  6
CONTINOUS
  10
900,00
  20
2000,00
  30
0
  11
1100,00
  21
2000,00
  31
0
  0
LINE
  8
BEDIENUNGSFREIRAUM
  6
CONTINOUS
  10
0,00
  20
2750,00
  30
0
  11
0,00
  21
2000,00
  31
0
  0
LINE
  8
BEDIENUNGSFREIRAUM
  6
CONTINOUS
  10
800,00
  20
2750,00
  30
0
  11
800,00
  21
2000,00
  31
0
  0
LINE
  8
BEDIENUNGSFREIRAUM
  6
CONTINOUS
  10
0,00
  20
2750,00
  30
0
  11
800,00
  21
2750,00
  31
0
  0
LINE
  8
BEDIENUNGSFREIRAUM
  6
CONTINOUS
  10
0,00
  20
2750,00
  30
0
  11
0,00
  21
2750,00
  31
0
  0
LINE
  8
BEDIENUNGSFREIRAUM
  6
CONTINOUS
  10
800,00
  20
2750,00
  30
0
  11
800,00
  21
2750,00
  31
0
  0
LINE
  8
BEDIENUNGSFREIRAUM
  6
CONTINOUS
  10
175,00
  20
2750,00
  30
0
  11
800,00
  21
2750,00
  31
0
  0
LINE
  8
BEDIENUNGSFREIRAUM
  6
CONTINOUS
  10
375,00
  20
2750,00
  30
0
  11
800,00
  21
2750,00
  31
0
  0
LINE
  8
BEDIENUNGSFREIRAUM
  6
CONTINOUS
  10
575,00
  20
2750,00
  30
0
  11
800,00
  21
2750,00
  31
0
  0
LINE
  8
BEDIENUNGSFREIRAUM
  6
CONTINOUS
  10
775,00
  20
2750,00
  30
0
  11
800,00
  21
2750,00
  31
0
  0
LINE
  8
BEDIENUNGSFREIRAUM
  6
CONTINOUS
  10
800,00
  20
2575,00
  30
0
  11
800,00
  21
2000,00
  31
0
  0
LINE
  8
BEDIENUNGSFREIRAUM
  6
CONTINOUS
  10
800,00
  20
2375,00
  30
0
  11
800,00
  21
2000,00
  31
0
  0
LINE
  8
BEDIENUNGSFREIRAUM
  6
CONTINOUS
  10
800,00
  20
2175,00
  30
0
  11
800,00
  21
2000,00
  31
0
  0
LINE
  8
BEDIENUNGSFREIRAUM
  6
CONTINOUS
  10
0,00
  20
2550,00
  30
0
  11
200,00
  21
2750,00
  31
0
  0
LINE
  8
BEDIENUNGSFREIRAUM
  6
CONTINOUS
  10
0,00
  20
2350,00
  30
0
  11
400,00
  21
2750,00
  31
0
  0
LINE
  8
BEDIENUNGSFREIRAUM
  6
CONTINOUS
  10
0,00
  20
2150,00
  30
0
  11
600,00
  21
2750,00
  31
0
  0
LINE
  8
BEDIENUNGSFREIRAUM
  6
CONTINOUS
  10
50,00
  20
2000,00
  30
0
  11
800,00
  21
2750,00
  31
0
  0
LINE
  8
BEDIENUNGSFREIRAUM
  6
CONTINOUS
  10
250,00
  20
2000,00
  30
0
  11
800,00
  21
2550,00
  31
0
  0
LINE
  8
BEDIENUNGSFREIRAUM
  6
CONTINOUS
  10
450,00
  20
2000,00
  30
0
  11
800,00
  21
2350,00
  31
0
  0
LINE
  8
BEDIENUNGSFREIRAUM
  6
CONTINOUS
  10
650,00
  20
2000,00
  30
0
  11
800,00
  21
2150,00
  31
0
  0
3DFACE
  8
EIGENE_EINRICHTUNG
  70
12
  10
0,00
  20
0,00
  30
0
  11
60,00
  21
0,00
  12
50,00
  22
-20,00
  32
0
  13
50,00
  23
-20,00
  33
0
  0
3DFACE
  8
EIGENE_EINRICHTUNG
  70
5
  10
0,00
  20
0,00
  30
0
  11
50,00
  21
-20,00
  12
0,00
  22
-20,00
  32
0
  13
0,00
  23
-20,00
  33
0
  0
3DFACE
  8
EIGENE_EINRICHTUNG
  70
12
  10
740,00
  20
0,00
  30
0
  11
800,00
  21
0,00
  12
800,00
  22
-20,00
  32
0
  13
800,00
  23
-20,00
  33
0
  0
3DFACE
  8
EIGENE_EINRICHTUNG
  70
5
  10
740,00
  20
0,00
  30
0
  11
800,00
  21
-20,00
  12
750,00
  22
-20,00
  32
0
  13
750,00
  23
-20,00
  33
0
  0
TEXT
  8
BESCHREIBUNGEN
  1
\U+0061\U+0069\U+0072\U+0044\U+0049\U+0052\U+0045\U+0043\U+0054\U+0020\U+0037\U+0035\U+0030\U+0020\U+0043\U+0043\U+0020\U+002F\U+0020\U+006C\U+0069\U+006E\U+006B\U+0073
  10
0,00
  20
2102,50
  30
0
  11
200,00
  21
2102,50
  31
0
  40
22,22
  50
0
  72
5
  73
0
  210
0,00
  220
0,00
  230
1,00
  0
ENDBLK
  0
BLOCK
  2
GERAT_1-21712-112341_L
  8
EIGENE_EINRICHTUNG
  70
64
  10
0
  20
0
  0
3DFACE
  8
EIGENE_EINRICHTUNG
  10
2158,22
  20
0,00
  30
0
  11
2158,22
  21
2000,00
  31
0
  12
2158,22
  22
2000,00
  32
0
  13
2158,22
  23
0,00
  33
0
  0
3DFACE
  8
EIGENE_EINRICHTUNG
  10
1533,22
  20
0,00
  30
0
  11
1533,22
  21
2000,00
  31
0
  12
1533,22
  22
2000,00
  32
0
  13
1533,22
  23
0,00
  33
0
  0
3DFACE
  8
EIGENE_EINRICHTUNG
  10
2158,22
  20
0,00
  30
0
  11
2158,22
  21
2000,00
  31
0
  12
1533,22
  22
2000,00
  32
0
  13
1533,22
  23
0,00
  33
0
  0
3DFACE
  8
EIGENE_EINRICHTUNG
  10
2158,22
  20
2000,00
  30
0
  11
2158,22
  21
0,00
  31
0
  12
1533,22
  22
0,00
  32
0
  13
1533,22
  23
2000,00
  33
0
  0
3DFACE
  8
EIGENE_EINRICHTUNG
  10
2158,22
  20
2000,00
  30
0
  11
2158,22
  21
2000,00
  31
0
  12
1533,22
  22
2000,00
  32
0
  13
1533,22
  23
2000,00
  33
0
  0
3DFACE
  8
EIGENE_EINRICHTUNG
  10
2158,22
  20
0,00
  30
0
  11
2158,22
  21
0,00
  31
0
  12
1533,22
  22
0,00
  32
0
  13
1533,22
  23
0,00
  33
0
  0
CIRCLE
  8
ANSCHLUSSSTUTZEN
  10
1858,22
  20
215,00
  30
0
  40
140,00
  210
0,00
  220
0,00
  230
1,00
  0
CIRCLE
  8
ANSCHLUSSSTUTZEN
  10
1858,22
  20
215,00
  30
0
  40
140,00
  210
0,00
  220
0,00
  230
1,00
  0
CIRCLE
  8
ANSCHLUSSSTUTZEN
  10
1858,22
  20
215,00
  30
0
  40
140,00
  210
0,00
  220
0,00
  230
1,00
  0
3DFACE
  8
ANSCHLUSSSTUTZEN
  10
2033,22
  20
485,00
  30
0
  11
1683,22
  21
485,00
  31
0
  12
1683,22
  22
835,00
  32
0
  13
2033,22
  23
835,00
  33
0
  0
CIRCLE
  8
ANSCHLUSSSTUTZEN
  10
1858,22
  20
660,00
  30
0
  40
140,00
  210
0,00
  220
0,00
  230
1,00
  0
CIRCLE
  8
ANSCHLUSSSTUTZEN
  10
1858,22
  20
660,00
  30
0
  40
140,00
  210
0,00
  220
0,00
  230
1,00
  0
CIRCLE
  8
ANSCHLUSSSTUTZEN
  10
1858,22
  20
660,00
  30
0
  40
140,00
  210
0,00
  220
0,00
  230
1,00
  0
CIRCLE
  8
EIGENE_EINRICHTUNG
  10
-1588,22
  20
440,00
  30
0
  40
0,00
  210
0,00
  220
0,00
  230
-1,00
  0
LINE
  8
EIGENE_EINRICHTUNG
  6
CONTINOUS
  10
1588,22
  20
440,00
  30
0
  11
1588,22
  21
440,00
  31
0
  0
LINE
  8
EIGENE_EINRICHTUNG
  6
CONTINOUS
  10
1588,22
  20
440,00
  30
0
  11
1588,22
  21
440,00
  31
0
  0
LINE
  8
EIGENE_EINRICHTUNG
  6
CONTINOUS
  10
1845,72
  20
1682,50
  30
0
  11
1845,72
  21
1682,50
  31
0
  0
LINE
  8
EIGENE_EINRICHTUNG
  6
CONTINOUS
  10
1845,72
  20
1682,50
  30
0
  11
1846,00
  21
1682,00
  31
0
  0
LINE
  8
EIGENE_EINRICHTUNG
  6
CONTINOUS
  10
1845,72
  20
1682,50
  30
0
  11
1846,00
  21
1682,00
  31
0
  0
TEXT
  8
BESCHREIBUNGEN
  1
\U+0041\U+0062
  10
1883,72
  20
1608,50
  30
0
  11
1919,72
  21
1608,50
  31
0
  40
36,00
  50
0
  72
5
  73
0
  210
0,00
  220
0,00
  230
1,00
  0
LINE
  8
BEDIENUNGSFREIRAUM
  6
CONTINOUS
  10
3048,22
  20
0,00
  30
0
  11
2198,22
  21
0,00
  31
0
  0
LINE
  8
BEDIENUNGSFREIRAUM
  6
CONTINOUS
  10
3048,22
  20
0,00
  30
0
  11
3048,22
  21
0,00
  31
0
  0
LINE
  8
BEDIENUNGSFREIRAUM
  6
CONTINOUS
  10
3048,22
  20
2000,00
  30
0
  11
2198,22
  21
2000,00
  31
0
  0
LINE
  8
BEDIENUNGSFREIRAUM
  6
CONTINOUS
  10
3048,22
  20
2000,00
  30
0
  11
3048,22
  21
2000,00
  31
0
  0
LINE
  8
BEDIENUNGSFREIRAUM
  6
CONTINOUS
  10
3048,22
  20
0,00
  30
0
  11
3048,22
  21
2000,00
  31
0
  0
LINE
  8
BEDIENUNGSFREIRAUM
  6
CONTINOUS
  10
3048,22
  20
1800,00
  30
0
  11
3048,22
  21
2000,00
  31
0
  0
LINE
  8
BEDIENUNGSFREIRAUM
  6
CONTINOUS
  10
3048,22
  20
1600,00
  30
0
  11
3048,22
  21
2000,00
  31
0
  0
LINE
  8
BEDIENUNGSFREIRAUM
  6
CONTINOUS
  10
3048,22
  20
1400,00
  30
0
  11
3048,22
  21
2000,00
  31
0
  0
LINE
  8
BEDIENUNGSFREIRAUM
  6
CONTINOUS
  10
3048,22
  20
1200,00
  30
0
  11
3048,22
  21
2000,00
  31
0
  0
LINE
  8
BEDIENUNGSFREIRAUM
  6
CONTINOUS
  10
3048,22
  20
1000,00
  30
0
  11
3048,22
  21
1800,00
  31
0
  0
LINE
  8
BEDIENUNGSFREIRAUM
  6
CONTINOUS
  10
3048,22
  20
800,00
  30
0
  11
3048,22
  21
1600,00
  31
0
  0
LINE
  8
BEDIENUNGSFREIRAUM
  6
CONTINOUS
  10
3048,22
  20
600,00
  30
0
  11
3048,22
  21
1400,00
  31
0
  0
LINE
  8
BEDIENUNGSFREIRAUM
  6
CONTINOUS
  10
3048,22
  20
400,00
  30
0
  11
3048,22
  21
1200,00
  31
0
  0
LINE
  8
BEDIENUNGSFREIRAUM
  6
CONTINOUS
  10
3048,22
  20
200,00
  30
0
  11
3048,22
  21
1000,00
  31
0
  0
LINE
  8
BEDIENUNGSFREIRAUM
  6
CONTINOUS
  10
3048,22
  20
0,00
  30
0
  11
3048,22
  21
800,00
  31
0
  0
LINE
  8
BEDIENUNGSFREIRAUM
  6
CONTINOUS
  10
3048,22
  20
1800,00
  30
0
  11
2848,22
  21
2000,00
  31
0
  0
LINE
  8
BEDIENUNGSFREIRAUM
  6
CONTINOUS
  10
3048,22
  20
1600,00
  30
0
  11
2648,22
  21
2000,00
  31
0
  0
LINE
  8
BEDIENUNGSFREIRAUM
  6
CONTINOUS
  10
3048,22
  20
1400,00
  30
0
  11
2448,22
  21
2000,00
  31
0
  0
LINE
  8
BEDIENUNGSFREIRAUM
  6
CONTINOUS
  10
3048,22
  20
1200,00
  30
0
  11
2248,22
  21
2000,00
  31
0
  0
LINE
  8
BEDIENUNGSFREIRAUM
  6
CONTINOUS
  10
3048,22
  20
1000,00
  30
0
  11
2198,22
  21
1850,00
  31
0
  0
LINE
  8
BEDIENUNGSFREIRAUM
  6
CONTINOUS
  10
3048,22
  20
800,00
  30
0
  11
2198,22
  21
1650,00
  31
0
  0
LINE
  8
BEDIENUNGSFREIRAUM
  6
CONTINOUS
  10
3048,22
  20
600,00
  30
0
  11
2198,22
  21
1450,00
  31
0
  0
LINE
  8
BEDIENUNGSFREIRAUM
  6
CONTINOUS
  10
3048,22
  20
400,00
  30
0
  11
2198,22
  21
1250,00
  31
0
  0
LINE
  8
BEDIENUNGSFREIRAUM
  6
CONTINOUS
  10
3048,22
  20
200,00
  30
0
  11
2198,22
  21
1050,00
  31
0
  0
LINE
  8
BEDIENUNGSFREIRAUM
  6
CONTINOUS
  10
3048,22
  20
0,00
  30
0
  11
2198,22
  21
850,00
  31
0
  0
LINE
  8
BEDIENUNGSFREIRAUM
  6
CONTINOUS
  10
2848,22
  20
0,00
  30
0
  11
2198,22
  21
650,00
  31
0
  0
LINE
  8
BEDIENUNGSFREIRAUM
  6
CONTINOUS
  10
2648,22
  20
0,00
  30
0
  11
2198,22
  21
450,00
  31
0
  0
LINE
  8
BEDIENUNGSFREIRAUM
  6
CONTINOUS
  10
2448,22
  20
0,00
  30
0
  11
2198,22
  21
250,00
  31
0
  0
LINE
  8
BEDIENUNGSFREIRAUM
  6
CONTINOUS
  10
2248,22
  20
0,00
  30
0
  11
2198,22
  21
50,00
  31
0
  0
LINE
  8
BEDIENUNGSFREIRAUM
  6
CONTINOUS
  10
2848,22
  20
2000,00
  30
0
  11
3048,22
  21
2000,00
  31
0
  0
LINE
  8
BEDIENUNGSFREIRAUM
  6
CONTINOUS
  10
2648,22
  20
2000,00
  30
0
  11
3048,22
  21
2000,00
  31
0
  0
LINE
  8
BEDIENUNGSFREIRAUM
  6
CONTINOUS
  10
2448,22
  20
2000,00
  30
0
  11
3048,22
  21
2000,00
  31
0
  0
LINE
  8
BEDIENUNGSFREIRAUM
  6
CONTINOUS
  10
2248,22
  20
2000,00
  30
0
  11
3048,22
  21
2000,00
  31
0
  0
LINE
  8
BEDIENUNGSFREIRAUM
  6
CONTINOUS
  10
2158,22
  20
2750,00
  30
0
  11
2158,22
  21
2000,00
  31
0
  0
LINE
  8
BEDIENUNGSFREIRAUM
  6
CONTINOUS
  10
2158,22
  20
2750,00
  30
0
  11
2158,22
  21
2750,00
  31
0
  0
LINE
  8
BEDIENUNGSFREIRAUM
  6
CONTINOUS
  10
1533,22
  20
2750,00
  30
0
  11
1533,22
  21
2000,00
  31
0
  0
LINE
  8
BEDIENUNGSFREIRAUM
  6
CONTINOUS
  10
1533,22
  20
2750,00
  30
0
  11
1533,22
  21
2750,00
  31
0
  0
LINE
  8
BEDIENUNGSFREIRAUM
  6
CONTINOUS
  10
2158,22
  20
2750,00
  30
0
  11
1533,22
  21
2750,00
  31
0
  0
LINE
  8
BEDIENUNGSFREIRAUM
  6
CONTINOUS
  10
1733,22
  20
2750,00
  30
0
  11
1533,22
  21
2750,00
  31
0
  0
LINE
  8
BEDIENUNGSFREIRAUM
  6
CONTINOUS
  10
1933,22
  20
2750,00
  30
0
  11
1533,22
  21
2750,00
  31
0
  0
LINE
  8
BEDIENUNGSFREIRAUM
  6
CONTINOUS
  10
2133,22
  20
2750,00
  30
0
  11
1533,22
  21
2750,00
  31
0
  0
LINE
  8
BEDIENUNGSFREIRAUM
  6
CONTINOUS
  10
1733,22
  20
2750,00
  30
0
  11
1533,22
  21
2550,00
  31
0
  0
LINE
  8
BEDIENUNGSFREIRAUM
  6
CONTINOUS
  10
1933,22
  20
2750,00
  30
0
  11
1533,22
  21
2350,00
  31
0
  0
LINE
  8
BEDIENUNGSFREIRAUM
  6
CONTINOUS
  10
2133,22
  20
2750,00
  30
0
  11
1533,22
  21
2150,00
  31
0
  0
LINE
  8
BEDIENUNGSFREIRAUM
  6
CONTINOUS
  10
2158,22
  20
2575,00
  30
0
  11
1583,22
  21
2000,00
  31
0
  0
LINE
  8
BEDIENUNGSFREIRAUM
  6
CONTINOUS
  10
2158,22
  20
2375,00
  30
0
  11
1783,22
  21
2000,00
  31
0
  0
LINE
  8
BEDIENUNGSFREIRAUM
  6
CONTINOUS
  10
2158,22
  20
2175,00
  30
0
  11
1983,22
  21
2000,00
  31
0
  0
LINE
  8
BEDIENUNGSFREIRAUM
  6
CONTINOUS
  10
1533,22
  20
2550,00
  30
0
  11
1533,22
  21
2750,00
  31
0
  0
LINE
  8
BEDIENUNGSFREIRAUM
  6
CONTINOUS
  10
1533,22
  20
2350,00
  30
0
  11
1533,22
  21
2750,00
  31
0
  0
LINE
  8
BEDIENUNGSFREIRAUM
  6
CONTINOUS
  10
1533,22
  20
2150,00
  30
0
  11
1533,22
  21
2750,00
  31
0
  0
3DFACE
  8
EIGENE_EINRICHTUNG
  10
2198,22
  20
0,00
  30
0
  11
2198,22
  21
2000,00
  31
0
  12
2198,22
  22
2000,00
  32
0
  13
2198,22
  23
0,00
  33
0
  0
3DFACE
  8
EIGENE_EINRICHTUNG
  10
2163,22
  20
0,00
  30
0
  11
2163,22
  21
2000,00
  31
0
  12
2163,22
  22
2000,00
  32
0
  13
2163,22
  23
0,00
  33
0
  0
3DFACE
  8
EIGENE_EINRICHTUNG
  10
2198,22
  20
0,00
  30
0
  11
2198,22
  21
2000,00
  31
0
  12
2163,22
  22
2000,00
  32
0
  13
2163,22
  23
0,00
  33
0
  0
3DFACE
  8
EIGENE_EINRICHTUNG
  10
2198,22
  20
2000,00
  30
0
  11
2198,22
  21
0,00
  31
0
  12
2163,22
  22
0,00
  32
0
  13
2163,22
  23
2000,00
  33
0
  0
3DFACE
  8
EIGENE_EINRICHTUNG
  10
2198,22
  20
2000,00
  30
0
  11
2198,22
  21
2000,00
  31
0
  12
2163,22
  22
2000,00
  32
0
  13
2163,22
  23
2000,00
  33
0
  0
3DFACE
  8
EIGENE_EINRICHTUNG
  10
2198,22
  20
0,00
  30
0
  11
2198,22
  21
0,00
  31
0
  12
2163,22
  22
0,00
  32
0
  13
2163,22
  23
0,00
  33
0
  0
3DFACE
  8
EIGENE_EINRICHTUNG
  70
12
  10
2158,22
  20
-20,00
  30
0
  11
2108,22
  21
-20,00
  12
2108,22
  22
0,00
  32
0
  13
2108,22
  23
0,00
  33
0
  0
3DFACE
  8
EIGENE_EINRICHTUNG
  70
5
  10
2158,22
  20
-20,00
  30
0
  11
2108,22
  21
0,00
  12
2158,22
  22
0,00
  32
0
  13
2158,22
  23
0,00
  33
0
  0
3DFACE
  8
EIGENE_EINRICHTUNG
  70
12
  10
1583,22
  20
-20,00
  30
0
  11
1533,22
  21
-20,00
  12
1533,22
  22
0,00
  32
0
  13
1533,22
  23
0,00
  33
0
  0
3DFACE
  8
EIGENE_EINRICHTUNG
  70
5
  10
1583,22
  20
-20,00
  30
0
  11
1533,22
  21
0,00
  12
1583,22
  22
0,00
  32
0
  13
1583,22
  23
0,00
  33
0
  0
ENDBLK
  0
BLOCK
  2
GERAT_1-21712-112341_R
  8
EIGENE_EINRICHTUNG
  70
64
  10
0
  20
0
  0
3DFACE
  8
EIGENE_EINRICHTUNG
  10
-1358,22
  20
0,00
  30
0
  11
-1358,22
  21
2000,00
  31
0
  12
-1358,22
  22
2000,00
  32
0
  13
-1358,22
  23
0,00
  33
0
  0
3DFACE
  8
EIGENE_EINRICHTUNG
  10
-733,22
  20
0,00
  30
0
  11
-733,22
  21
2000,00
  31
0
  12
-733,22
  22
2000,00
  32
0
  13
-733,22
  23
0,00
  33
0
  0
3DFACE
  8
EIGENE_EINRICHTUNG
  10
-1358,22
  20
0,00
  30
0
  11
-1358,22
  21
2000,00
  31
0
  12
-733,22
  22
2000,00
  32
0
  13
-733,22
  23
0,00
  33
0
  0
3DFACE
  8
EIGENE_EINRICHTUNG
  10
-1358,22
  20
2000,00
  30
0
  11
-1358,22
  21
0,00
  31
0
  12
-733,22
  22
0,00
  32
0
  13
-733,22
  23
2000,00
  33
0
  0
3DFACE
  8
EIGENE_EINRICHTUNG
  10
-1358,22
  20
2000,00
  30
0
  11
-1358,22
  21
2000,00
  31
0
  12
-733,22
  22
2000,00
  32
0
  13
-733,22
  23
2000,00
  33
0
  0
3DFACE
  8
EIGENE_EINRICHTUNG
  10
-1358,22
  20
0,00
  30
0
  11
-1358,22
  21
0,00
  31
0
  12
-733,22
  22
0,00
  32
0
  13
-733,22
  23
0,00
  33
0
  0
3DFACE
  8
ANSCHLUSSSTUTZEN
  10
-1308,22
  20
1895,00
  30
0
  11
-783,22
  21
1895,00
  31
0
  12
-783,22
  22
1470,00
  32
0
  13
-1308,22
  23
1470,00
  33
0
  0
3DFACE
  8
ANSCHLUSSSTUTZEN
  10
-1308,22
  20
1682,50
  30
0
  11
-1308,22
  21
1682,50
  31
0
  12
-783,22
  22
1682,50
  32
0
  13
-783,22
  23
1682,50
  33
0
  0
LINE
  8
ANSCHLUSSSTUTZEN
  6
CONTINOUS
  10
-1058,22
  20
215,00
  30
0
  11
-1058,22
  21
215,00
  31
0
  0
LINE
  8
ANSCHLUSSSTUTZEN
  6
CONTINOUS
  10
-1058,22
  20
215,00
  30
0
  11
-1058,00
  21
215,00
  31
0
  0
LINE
  8
ANSCHLUSSSTUTZEN
  6
CONTINOUS
  10
-1058,22
  20
215,00
  30
0
  11
-1058,00
  21
215,00
  31
0
  0
TEXT
  8
BESCHREIBUNGEN
  1
\U+0041\U+0075
  10
-1132,22
  20
141,00
  30
0
  11
-1096,22
  21
141,00
  31
0
  40
36,00
  50
0
  72
5
  73
0
  210
0,00
  220
0,00
  230
1,00
  0
LINE
  8
ANSCHLUSSSTUTZEN
  6
CONTINOUS
  10
-1058,22
  20
660,00
  30
0
  11
-1058,22
  21
660,00
  31
0
  0
LINE
  8
ANSCHLUSSSTUTZEN
  6
CONTINOUS
  10
-1058,22
  20
660,00
  30
0
  11
-1058,00
  21
660,00
  31
0
  0
LINE
  8
ANSCHLUSSSTUTZEN
  6
CONTINOUS
  10
-1058,22
  20
660,00
  30
0
  11
-1058,00
  21
660,00
  31
0
  0
TEXT
  8
BESCHREIBUNGEN
  1
\U+0046\U+006F
  10
-1130,84
  20
586,00
  30
0
  11
-1097,61
  21
586,00
  31
0
  40
36,00
  50
0
  72
5
  73
0
  210
0,00
  220
0,00
  230
1,00
  0
LINE
  8
BEDIENUNGSFREIRAUM
  6
CONTINOUS
  10
-2248,22
  20
0,00
  30
0
  11
-1398,22
  21
0,00
  31
0
  0
LINE
  8
BEDIENUNGSFREIRAUM
  6
CONTINOUS
  10
-2248,22
  20
0,00
  30
0
  11
-2248,22
  21
0,00
  31
0
  0
LINE
  8
BEDIENUNGSFREIRAUM
  6
CONTINOUS
  10
-2248,22
  20
2000,00
  30
0
  11
-1398,22
  21
2000,00
  31
0
  0
LINE
  8
BEDIENUNGSFREIRAUM
  6
CONTINOUS
  10
-2248,22
  20
2000,00
  30
0
  11
-2248,22
  21
2000,00
  31
0
  0
LINE
  8
BEDIENUNGSFREIRAUM
  6
CONTINOUS
  10
-2248,22
  20
0,00
  30
0
  11
-2248,22
  21
2000,00
  31
0
  0
LINE
  8
BEDIENUNGSFREIRAUM
  6
CONTINOUS
  10
-2248,22
  20
1200,00
  30
0
  11
-2248,22
  21
2000,00
  31
0
  0
LINE
  8
BEDIENUNGSFREIRAUM
  6
CONTINOUS
  10
-2248,22
  20
1000,00
  30
0
  11
-2248,22
  21
1800,00
  31
0
  0
LINE
  8
BEDIENUNGSFREIRAUM
  6
CONTINOUS
  10
-2248,22
  20
800,00
  30
0
  11
-2248,22
  21
1600,00
  31
0
  0
LINE
  8
BEDIENUNGSFREIRAUM
  6
CONTINOUS
  10
-2248,22
  20
600,00
  30
0
  11
-2248,22
  21
1400,00
  31
0
  0
LINE
  8
BEDIENUNGSFREIRAUM
  6
CONTINOUS
  10
-2248,22
  20
400,00
  30
0
  11
-2248,22
  21
1200,00
  31
0
  0
LINE
  8
BEDIENUNGSFREIRAUM
  6
CONTINOUS
  10
-2248,22
  20
200,00
  30
0
  11
-2248,22
  21
1000,00
  31
0
  0
LINE
  8
BEDIENUNGSFREIRAUM
  6
CONTINOUS
  10
-2248,22
  20
0,00
  30
0
  11
-2248,22
  21
800,00
  31
0
  0
LINE
  8
BEDIENUNGSFREIRAUM
  6
CONTINOUS
  10
-2248,22
  20
0,00
  30
0
  11
-2248,22
  21
600,00
  31
0
  0
LINE
  8
BEDIENUNGSFREIRAUM
  6
CONTINOUS
  10
-2248,22
  20
0,00
  30
0
  11
-2248,22
  21
400,00
  31
0
  0
LINE
  8
BEDIENUNGSFREIRAUM
  6
CONTINOUS
  10
-2248,22
  20
0,00
  30
0
  11
-2248,22
  21
200,00
  31
0
  0
LINE
  8
BEDIENUNGSFREIRAUM
  6
CONTINOUS
  10
-2248,22
  20
0,00
  30
0
  11
-2248,22
  21
0,00
  31
0
  0
LINE
  8
BEDIENUNGSFREIRAUM
  6
CONTINOUS
  10
-2248,22
  20
1800,00
  30
0
  11
-2048,22
  21
2000,00
  31
0
  0
LINE
  8
BEDIENUNGSFREIRAUM
  6
CONTINOUS
  10
-2248,22
  20
1600,00
  30
0
  11
-1848,22
  21
2000,00
  31
0
  0
LINE
  8
BEDIENUNGSFREIRAUM
  6
CONTINOUS
  10
-2248,22
  20
1400,00
  30
0
  11
-1648,22
  21
2000,00
  31
0
  0
LINE
  8
BEDIENUNGSFREIRAUM
  6
CONTINOUS
  10
-2248,22
  20
1200,00
  30
0
  11
-1448,22
  21
2000,00
  31
0
  0
LINE
  8
BEDIENUNGSFREIRAUM
  6
CONTINOUS
  10
-2248,22
  20
1000,00
  30
0
  11
-1398,22
  21
1850,00
  31
0
  0
LINE
  8
BEDIENUNGSFREIRAUM
  6
CONTINOUS
  10
-2248,22
  20
800,00
  30
0
  11
-1398,22
  21
1650,00
  31
0
  0
LINE
  8
BEDIENUNGSFREIRAUM
  6
CONTINOUS
  10
-2248,22
  20
600,00
  30
0
  11
-1398,22
  21
1450,00
  31
0
  0
LINE
  8
BEDIENUNGSFREIRAUM
  6
CONTINOUS
  10
-2248,22
  20
400,00
  30
0
  11
-1398,22
  21
1250,00
  31
0
  0
LINE
  8
BEDIENUNGSFREIRAUM
  6
CONTINOUS
  10
-2248,22
  20
200,00
  30
0
  11
-1398,22
  21
1050,00
  31
0
  0
LINE
  8
BEDIENUNGSFREIRAUM
  6
CONTINOUS
  10
-2248,22
  20
0,00
  30
0
  11
-1398,22
  21
850,00
  31
0
  0
LINE
  8
BEDIENUNGSFREIRAUM
  6
CONTINOUS
  10
-2048,22
  20
0,00
  30
0
  11
-1398,22
  21
650,00
  31
0
  0
LINE
  8
BEDIENUNGSFREIRAUM
  6
CONTINOUS
  10
-1848,22
  20
0,00
  30
0
  11
-1398,22
  21
450,00
  31
0
  0
LINE
  8
BEDIENUNGSFREIRAUM
  6
CONTINOUS
  10
-1648,22
  20
0,00
  30
0
  11
-1398,22
  21
250,00
  31
0
  0
LINE
  8
BEDIENUNGSFREIRAUM
  6
CONTINOUS
  10
-1448,22
  20
0,00
  30
0
  11
-1398,22
  21
50,00
  31
0
  0
LINE
  8
BEDIENUNGSFREIRAUM
  6
CONTINOUS
  10
-1448,22
  20
2000,00
  30
0
  11
-2248,22
  21
2000,00
  31
0
  0
LINE
  8
BEDIENUNGSFREIRAUM
  6
CONTINOUS
  10
-1398,22
  20
2000,00
  30
0
  11
-2048,22
  21
2000,00
  31
0
  0
LINE
  8
BEDIENUNGSFREIRAUM
  6
CONTINOUS
  10
-1398,22
  20
2000,00
  30
0
  11
-1848,22
  21
2000,00
  31
0
  0
LINE
  8
BEDIENUNGSFREIRAUM
  6
CONTINOUS
  10
-1398,22
  20
2000,00
  30
0
  11
-1648,22
  21
2000,00
  31
0
  0
LINE
  8
BEDIENUNGSFREIRAUM
  6
CONTINOUS
  10
-1398,22
  20
2000,00
  30
0
  11
-1448,22
  21
2000,00
  31
0
  0
LINE
  8
BEDIENUNGSFREIRAUM
  6
CONTINOUS
  10
-1358,22
  20
2750,00
  30
0
  11
-1358,22
  21
2000,00
  31
0
  0
LINE
  8
BEDIENUNGSFREIRAUM
  6
CONTINOUS
  10
-1358,22
  20
2750,00
  30
0
  11
-1358,22
  21
2750,00
  31
0
  0
LINE
  8
BEDIENUNGSFREIRAUM
  6
CONTINOUS
  10
-733,22
  20
2750,00
  30
0
  11
-733,22
  21
2000,00
  31
0
  0
LINE
  8
BEDIENUNGSFREIRAUM
  6
CONTINOUS
  10
-733,22
  20
2750,00
  30
0
  11
-733,22
  21
2750,00
  31
0
  0
LINE
  8
BEDIENUNGSFREIRAUM
  6
CONTINOUS
  10
-1358,22
  20
2750,00
  30
0
  11
-733,22
  21
2750,00
  31
0
  0
LINE
  8
BEDIENUNGSFREIRAUM
  6
CONTINOUS
  10
-1358,22
  20
2750,00
  30
0
  11
-733,22
  21
2750,00
  31
0
  0
LINE
  8
BEDIENUNGSFREIRAUM
  6
CONTINOUS
  10
-1358,22
  20
2750,00
  30
0
  11
-933,22
  21
2750,00
  31
0
  0
LINE
  8
BEDIENUNGSFREIRAUM
  6
CONTINOUS
  10
-1358,22
  20
2750,00
  30
0
  11
-1133,22
  21
2750,00
  31
0
  0
LINE
  8
BEDIENUNGSFREIRAUM
  6
CONTINOUS
  10
-1358,22
  20
2750,00
  30
0
  11
-1333,22
  21
2750,00
  31
0
  0
LINE
  8
BEDIENUNGSFREIRAUM
  6
CONTINOUS
  10
-933,22
  20
2750,00
  30
0
  11
-733,22
  21
2550,00
  31
0
  0
LINE
  8
BEDIENUNGSFREIRAUM
  6
CONTINOUS
  10
-1133,22
  20
2750,00
  30
0
  11
-733,22
  21
2350,00
  31
0
  0
LINE
  8
BEDIENUNGSFREIRAUM
  6
CONTINOUS
  10
-1333,22
  20
2750,00
  30
0
  11
-733,22
  21
2150,00
  31
0
  0
LINE
  8
BEDIENUNGSFREIRAUM
  6
CONTINOUS
  10
-1358,22
  20
2575,00
  30
0
  11
-783,22
  21
2000,00
  31
0
  0
LINE
  8
BEDIENUNGSFREIRAUM
  6
CONTINOUS
  10
-1358,22
  20
2375,00
  30
0
  11
-983,22
  21
2000,00
  31
0
  0
LINE
  8
BEDIENUNGSFREIRAUM
  6
CONTINOUS
  10
-1358,22
  20
2175,00
  30
0
  11
-1183,22
  21
2000,00
  31
0
  0
LINE
  8
BEDIENUNGSFREIRAUM
  6
CONTINOUS
  10
-733,22
  20
2000,00
  30
0
  11
-733,22
  21
2750,00
  31
0
  0
LINE
  8
BEDIENUNGSFREIRAUM
  6
CONTINOUS
  10
-733,22
  20
2000,00
  30
0
  11
-733,22
  21
2550,00
  31
0
  0
LINE
  8
BEDIENUNGSFREIRAUM
  6
CONTINOUS
  10
-733,22
  20
2000,00
  30
0
  11
-733,22
  21
2350,00
  31
0
  0
LINE
  8
BEDIENUNGSFREIRAUM
  6
CONTINOUS
  10
-733,22
  20
2000,00
  30
0
  11
-733,22
  21
2150,00
  31
0
  0
3DFACE
  8
EIGENE_EINRICHTUNG
  10
-1398,22
  20
0,00
  30
0
  11
-1398,22
  21
2000,00
  31
0
  12
-1398,22
  22
2000,00
  32
0
  13
-1398,22
  23
0,00
  33
0
  0
3DFACE
  8
EIGENE_EINRICHTUNG
  10
-1363,22
  20
0,00
  30
0
  11
-1363,22
  21
2000,00
  31
0
  12
-1363,22
  22
2000,00
  32
0
  13
-1363,22
  23
0,00
  33
0
  0
3DFACE
  8
EIGENE_EINRICHTUNG
  10
-1398,22
  20
0,00
  30
0
  11
-1398,22
  21
2000,00
  31
0
  12
-1363,22
  22
2000,00
  32
0
  13
-1363,22
  23
0,00
  33
0
  0
3DFACE
  8
EIGENE_EINRICHTUNG
  10
-1398,22
  20
2000,00
  30
0
  11
-1398,22
  21
0,00
  31
0
  12
-1363,22
  22
0,00
  32
0
  13
-1363,22
  23
2000,00
  33
0
  0
3DFACE
  8
EIGENE_EINRICHTUNG
  10
-1398,22
  20
2000,00
  30
0
  11
-1398,22
  21
2000,00
  31
0
  12
-1363,22
  22
2000,00
  32
0
  13
-1363,22
  23
2000,00
  33
0
  0
3DFACE
  8
EIGENE_EINRICHTUNG
  10
-1398,22
  20
0,00
  30
0
  11
-1398,22
  21
0,00
  31
0
  12
-1363,22
  22
0,00
  32
0
  13
-1363,22
  23
0,00
  33
0
  0
3DFACE
  8
EIGENE_EINRICHTUNG
  70
12
  10
-1358,22
  20
-20,00
  30
0
  11
-1308,22
  21
-20,00
  12
-1308,22
  22
0,00
  32
0
  13
-1308,22
  23
0,00
  33
0
  0
3DFACE
  8
EIGENE_EINRICHTUNG
  70
5
  10
-1358,22
  20
-20,00
  30
0
  11
-1308,22
  21
0,00
  12
-1358,22
  22
0,00
  32
0
  13
-1358,22
  23
0,00
  33
0
  0
3DFACE
  8
EIGENE_EINRICHTUNG
  70
12
  10
-783,22
  20
-20,00
  30
0
  11
-733,22
  21
-20,00
  12
-733,22
  22
0,00
  32
0
  13
-733,22
  23
0,00
  33
0
  0
3DFACE
  8
EIGENE_EINRICHTUNG
  70
5
  10
-783,22
  20
-20,00
  30
0
  11
-733,22
  21
0,00
  12
-783,22
  22
0,00
  32
0
  13
-783,22
  23
0,00
  33
0
  0
ENDBLK
  0
BLOCK
  2
GERAT_1-21712-112341_T
  8
EIGENE_EINRICHTUNG
  70
64
  10
0
  20
0
  0
3DFACE
  8
EIGENE_EINRICHTUNG
  10
0,00
  20
-1332,22
  30
0
  11
0,00
  21
-1332,22
  31
0
  12
800,00
  22
-1332,22
  32
0
  13
800,00
  23
-1332,22
  33
0
  0
3DFACE
  8
EIGENE_EINRICHTUNG
  10
0,00
  20
-707,22
  30
0
  11
0,00
  21
-707,22
  31
0
  12
800,00
  22
-707,22
  32
0
  13
800,00
  23
-707,22
  33
0
  0
3DFACE
  8
EIGENE_EINRICHTUNG
  10
0,00
  20
-1332,22
  30
0
  11
0,00
  21
-1332,22
  31
0
  12
0,00
  22
-707,22
  32
0
  13
0,00
  23
-707,22
  33
0
  0
3DFACE
  8
EIGENE_EINRICHTUNG
  10
800,00
  20
-1332,22
  30
0
  11
800,00
  21
-1332,22
  31
0
  12
800,00
  22
-707,22
  32
0
  13
800,00
  23
-707,22
  33
0
  0
3DFACE
  8
EIGENE_EINRICHTUNG
  10
0,00
  20
-1332,22
  30
0
  11
800,00
  21
-1332,22
  31
0
  12
800,00
  22
-707,22
  32
0
  13
0,00
  23
-707,22
  33
0
  0
3DFACE
  8
EIGENE_EINRICHTUNG
  10
0,00
  20
-1332,22
  30
0
  11
800,00
  21
-1332,22
  31
0
  12
800,00
  22
-707,22
  32
0
  13
0,00
  23
-707,22
  33
0
  0
3DFACE
  8
ANSCHLUSSSTUTZEN
  10
30,00
  20
-1327,22
  30
0
  11
30,00
  21
-1157,22
  31
0
  12
370,00
  22
-1157,22
  32
0
  13
370,00
  23
-1327,22
  33
0
  0
3DFACE
  8
ANSCHLUSSSTUTZEN
  10
0,00
  20
-1207,22
  30
0
  11
0,00
  21
-857,22
  31
0
  12
-110,00
  22
-892,22
  32
0
  13
-110,00
  23
-1172,22
  33
0
  0
3DFACE
  8
ANSCHLUSSSTUTZEN
  10
-110,00
  20
-1172,22
  30
0
  11
-130,00
  21
-1172,22
  31
0
  12
-130,00
  22
-892,22
  32
0
  13
-110,00
  23
-892,22
  33
0
  0
LINE
  8
EIGENE_EINRICHTUNG
  6
CONTINOUS
  10
0,00
  20
-762,22
  30
0
  11
-50,00
  21
-762,22
  31
0
  0
LINE
  8
BEDIENUNGSFREIRAUM
  6
CONTINOUS
  10
0,00
  20
-2222,22
  30
0
  11
0,00
  21
-1372,22
  31
0
  0
LINE
  8
BEDIENUNGSFREIRAUM
  6
CONTINOUS
  10
800,00
  20
-2222,22
  30
0
  11
800,00
  21
-1372,22
  31
0
  0
LINE
  8
BEDIENUNGSFREIRAUM
  6
CONTINOUS
  10
0,00
  20
-2222,22
  30
0
  11
800,00
  21
-2222,22
  31
0
  0
LINE
  8
BEDIENUNGSFREIRAUM
  6
CONTINOUS
  10
0,00
  20
-2222,22
  30
0
  11
0,00
  21
-2222,22
  31
0
  0
LINE
  8
BEDIENUNGSFREIRAUM
  6
CONTINOUS
  10
800,00
  20
-2222,22
  30
0
  11
800,00
  21
-2222,22
  31
0
  0
LINE
  8
BEDIENUNGSFREIRAUM
  6
CONTINOUS
  10
0,00
  20
-2222,22
  30
0
  11
200,00
  21
-2222,22
  31
0
  0
LINE
  8
BEDIENUNGSFREIRAUM
  6
CONTINOUS
  10
0,00
  20
-2222,22
  30
0
  11
400,00
  21
-2222,22
  31
0
  0
LINE
  8
BEDIENUNGSFREIRAUM
  6
CONTINOUS
  10
0,00
  20
-2222,22
  30
0
  11
600,00
  21
-2222,22
  31
0
  0
LINE
  8
BEDIENUNGSFREIRAUM
  6
CONTINOUS
  10
0,00
  20
-2222,22
  30
0
  11
800,00
  21
-2222,22
  31
0
  0
LINE
  8
BEDIENUNGSFREIRAUM
  6
CONTINOUS
  10
800,00
  20
-2222,22
  30
0
  11
800,00
  21
-2022,22
  31
0
  0
LINE
  8
BEDIENUNGSFREIRAUM
  6
CONTINOUS
  10
800,00
  20
-2222,22
  30
0
  11
800,00
  21
-1822,22
  31
0
  0
LINE
  8
BEDIENUNGSFREIRAUM
  6
CONTINOUS
  10
800,00
  20
-2222,22
  30
0
  11
800,00
  21
-1622,22
  31
0
  0
LINE
  8
BEDIENUNGSFREIRAUM
  6
CONTINOUS
  10
800,00
  20
-2222,22
  30
0
  11
800,00
  21
-1422,22
  31
0
  0
LINE
  8
BEDIENUNGSFREIRAUM
  6
CONTINOUS
  10
0,00
  20
-2022,22
  30
0
  11
200,00
  21
-2222,22
  31
0
  0
LINE
  8
BEDIENUNGSFREIRAUM
  6
CONTINOUS
  10
0,00
  20
-1822,22
  30
0
  11
400,00
  21
-2222,22
  31
0
  0
LINE
  8
BEDIENUNGSFREIRAUM
  6
CONTINOUS
  10
0,00
  20
-1622,22
  30
0
  11
600,00
  21
-2222,22
  31
0
  0
LINE
  8
BEDIENUNGSFREIRAUM
  6
CONTINOUS
  10
0,00
  20
-1422,22
  30
0
  11
800,00
  21
-2222,22
  31
0
  0
LINE
  8
BEDIENUNGSFREIRAUM
  6
CONTINOUS
  10
150,00
  20
-1372,22
  30
0
  11
800,00
  21
-2022,22
  31
0
  0
LINE
  8
BEDIENUNGSFREIRAUM
  6
CONTINOUS
  10
350,00
  20
-1372,22
  30
0
  11
800,00
  21
-1822,22
  31
0
  0
LINE
  8
BEDIENUNGSFREIRAUM
  6
CONTINOUS
  10
550,00
  20
-1372,22
  30
0
  11
800,00
  21
-1622,22
  31
0
  0
LINE
  8
BEDIENUNGSFREIRAUM
  6
CONTINOUS
  10
750,00
  20
-1372,22
  30
0
  11
800,00
  21
-1422,22
  31
0
  0
LINE
  8
BEDIENUNGSFREIRAUM
  6
CONTINOUS
  10
-300,00
  20
-707,22
  30
0
  11
0,00
  21
-707,22
  31
0
  0
LINE
  8
BEDIENUNGSFREIRAUM
  6
CONTINOUS
  10
-300,00
  20
-1332,22
  30
0
  11
0,00
  21
-1332,22
  31
0
  0
LINE
  8
BEDIENUNGSFREIRAUM
  6
CONTINOUS
  10
-300,00
  20
-707,22
  30
0
  11
-300,00
  21
-1332,22
  31
0
  0
LINE
  8
BEDIENUNGSFREIRAUM
  6
CONTINOUS
  10
-300,00
  20
-707,22
  30
0
  11
-300,00
  21
-707,22
  31
0
  0
LINE
  8
BEDIENUNGSFREIRAUM
  6
CONTINOUS
  10
-300,00
  20
-1332,22
  30
0
  11
-300,00
  21
-1332,22
  31
0
  0
LINE
  8
BEDIENUNGSFREIRAUM
  6
CONTINOUS
  10
-300,00
  20
-707,22
  30
0
  11
-300,00
  21
-907,22
  31
0
  0
LINE
  8
BEDIENUNGSFREIRAUM
  6
CONTINOUS
  10
-300,00
  20
-707,22
  30
0
  11
-300,00
  21
-1107,22
  31
0
  0
LINE
  8
BEDIENUNGSFREIRAUM
  6
CONTINOUS
  10
-300,00
  20
-707,22
  30
0
  11
-300,00
  21
-1307,22
  31
0
  0
LINE
  8
BEDIENUNGSFREIRAUM
  6
CONTINOUS
  10
-300,00
  20
-1332,22
  30
0
  11
-100,00
  21
-1332,22
  31
0
  0
LINE
  8
BEDIENUNGSFREIRAUM
  6
CONTINOUS
  10
-100,00
  20
-707,22
  30
0
  11
-300,00
  21
-907,22
  31
0
  0
LINE
  8
BEDIENUNGSFREIRAUM
  6
CONTINOUS
  10
0,00
  20
-807,22
  30
0
  11
-300,00
  21
-1107,22
  31
0
  0
LINE
  8
BEDIENUNGSFREIRAUM
  6
CONTINOUS
  10
0,00
  20
-1007,22
  30
0
  11
-300,00
  21
-1307,22
  31
0
  0
LINE
  8
BEDIENUNGSFREIRAUM
  6
CONTINOUS
  10
0,00
  20
-1207,22
  30
0
  11
-125,00
  21
-1332,22
  31
0
  0
LINE
  8
BEDIENUNGSFREIRAUM
  6
CONTINOUS
  10
1100,00
  20
-1332,22
  30
0
  11
800,00
  21
-1332,22
  31
0
  0
LINE
  8
BEDIENUNGSFREIRAUM
  6
CONTINOUS
  10
1100,00
  20
-707,22
  30
0
  11
800,00
  21
-707,22
  31
0
  0
LINE
  8
BEDIENUNGSFREIRAUM
  6
CONTINOUS
  10
1100,00
  20
-1332,22
  30
0
  11
1100,00
  21
-707,22
  31
0
  0
LINE
  8
BEDIENUNGSFREIRAUM
  6
CONTINOUS
  10
1100,00
  20
-1332,22
  30
0
  11
1100,00
  21
-1332,22
  31
0
  0
LINE
  8
BEDIENUNGSFREIRAUM
  6
CONTINOUS
  10
1100,00
  20
-707,22
  30
0
  11
1100,00
  21
-707,22
  31
0
  0
LINE
  8
BEDIENUNGSFREIRAUM
  6
CONTINOUS
  10
1100,00
  20
-1332,22
  30
0
  11
1100,00
  21
-1132,22
  31
0
  0
LINE
  8
BEDIENUNGSFREIRAUM
  6
CONTINOUS
  10
1100,00
  20
-1332,22
  30
0
  11
1100,00
  21
-932,22
  31
0
  0
LINE
  8
BEDIENUNGSFREIRAUM
  6
CONTINOUS
  10
1100,00
  20
-1332,22
  30
0
  11
1100,00
  21
-732,22
  31
0
  0
LINE
  8
BEDIENUNGSFREIRAUM
  6
CONTINOUS
  10
1100,00
  20
-707,22
  30
0
  11
900,00
  21
-707,22
  31
0
  0
LINE
  8
BEDIENUNGSFREIRAUM
  6
CONTINOUS
  10
900,00
  20
-1332,22
  30
0
  11
1100,00
  21
-1132,22
  31
0
  0
LINE
  8
BEDIENUNGSFREIRAUM
  6
CONTINOUS
  10
800,00
  20
-1232,22
  30
0
  11
1100,00
  21
-932,22
  31
0
  0
LINE
  8
BEDIENUNGSFREIRAUM
  6
CONTINOUS
  10
800,00
  20
-1032,22
  30
0
  11
1100,00
  21
-732,22
  31
0
  0
LINE
  8
BEDIENUNGSFREIRAUM
  6
CONTINOUS
  10
800,00
  20
-832,22
  30
0
  11
925,00
  21
-707,22
  31
0
  0
3DFACE
  8
EIGENE_EINRICHTUNG
  10
0,00
  20
-1372,22
  30
0
  11
0,00
  21
-1372,22
  31
0
  12
800,00
  22
-1372,22
  32
0
  13
800,00
  23
-1372,22
  33
0
  0
3DFACE
  8
EIGENE_EINRICHTUNG
  10
0,00
  20
-1337,22
  30
0
  11
0,00
  21
-1337,22
  31
0
  12
800,00
  22
-1337,22
  32
0
  13
800,00
  23
-1337,22
  33
0
  0
3DFACE
  8
EIGENE_EINRICHTUNG
  10
0,00
  20
-1372,22
  30
0
  11
0,00
  21
-1372,22
  31
0
  12
0,00
  22
-1337,22
  32
0
  13
0,00
  23
-1337,22
  33
0
  0
3DFACE
  8
EIGENE_EINRICHTUNG
  10
800,00
  20
-1372,22
  30
0
  11
800,00
  21
-1372,22
  31
0
  12
800,00
  22
-1337,22
  32
0
  13
800,00
  23
-1337,22
  33
0
  0
3DFACE
  8
EIGENE_EINRICHTUNG
  10
0,00
  20
-1372,22
  30
0
  11
800,00
  21
-1372,22
  31
0
  12
800,00
  22
-1337,22
  32
0
  13
0,00
  23
-1337,22
  33
0
  0
3DFACE
  8
EIGENE_EINRICHTUNG
  10
0,00
  20
-1372,22
  30
0
  11
800,00
  21
-1372,22
  31
0
  12
800,00
  22
-1337,22
  32
0
  13
0,00
  23
-1337,22
  33
0
  0
3DFACE
  8
EIGENE_EINRICHTUNG
  10
0,00
  20
-1332,22
  30
0
  11
0,00
  21
-1282,22
  31
0
  12
60,00
  22
-1282,22
  32
0
  13
60,00
  23
-1332,22
  33
0
  0
3DFACE
  8
EIGENE_EINRICHTUNG
  10
740,00
  20
-1332,22
  30
0
  11
740,00
  21
-1282,22
  31
0
  12
800,00
  22
-1282,22
  32
0
  13
800,00
  23
-1332,22
  33
0
  0
3DFACE
  8
EIGENE_EINRICHTUNG
  10
0,00
  20
-757,22
  30
0
  11
0,00
  21
-707,22
  31
0
  12
60,00
  22
-707,22
  32
0
  13
60,00
  23
-757,22
  33
0
  0
3DFACE
  8
EIGENE_EINRICHTUNG
  10
740,00
  20
-757,22
  30
0
  11
740,00
  21
-707,22
  31
0
  12
800,00
  22
-707,22
  32
0
  13
800,00
  23
-757,22
  33
0
  0
ENDBLK
  0
BLOCK
  2
GERAT_1-21712-112341_B
  8
EIGENE_EINRICHTUNG
  70
64
  10
0
  20
0
  0
3DFACE
  8
EIGENE_EINRICHTUNG
  10
0,00
  20
4067,92
  30
0
  11
0,00
  21
4067,92
  31
0
  12
800,00
  22
4067,92
  32
0
  13
800,00
  23
4067,92
  33
0
  0
3DFACE
  8
EIGENE_EINRICHTUNG
  10
0,00
  20
3442,92
  30
0
  11
0,00
  21
3442,92
  31
0
  12
800,00
  22
3442,92
  32
0
  13
800,00
  23
3442,92
  33
0
  0
3DFACE
  8
EIGENE_EINRICHTUNG
  10
0,00
  20
4067,92
  30
0
  11
0,00
  21
4067,92
  31
0
  12
0,00
  22
3442,92
  32
0
  13
0,00
  23
3442,92
  33
0
  0
3DFACE
  8
EIGENE_EINRICHTUNG
  10
800,00
  20
4067,92
  30
0
  11
800,00
  21
4067,92
  31
0
  12
800,00
  22
3442,92
  32
0
  13
800,00
  23
3442,92
  33
0
  0
3DFACE
  8
EIGENE_EINRICHTUNG
  10
0,00
  20
4067,92
  30
0
  11
800,00
  21
4067,92
  31
0
  12
800,00
  22
3442,92
  32
0
  13
0,00
  23
3442,92
  33
0
  0
3DFACE
  8
EIGENE_EINRICHTUNG
  10
0,00
  20
4067,92
  30
0
  11
800,00
  21
4067,92
  31
0
  12
800,00
  22
3442,92
  32
0
  13
0,00
  23
3442,92
  33
0
  0
3DFACE
  8
ANSCHLUSSSTUTZEN
  10
0,00
  20
3907,92
  30
0
  11
-75,00
  21
3907,92
  31
0
  12
-75,00
  22
3627,92
  32
0
  13
0,00
  23
3627,92
  33
0
  0
LINE
  8
EIGENE_EINRICHTUNG
  6
CONTINOUS
  10
0,00
  20
3497,92
  30
0
  11
-50,00
  21
3497,92
  31
0
  0
LINE
  8
EIGENE_EINRICHTUNG
  6
CONTINOUS
  10
200,00
  20
3977,92
  30
0
  11
200,00
  21
3977,92
  31
0
  0
LINE
  8
EIGENE_EINRICHTUNG
  6
CONTINOUS
  10
200,00
  20
3977,92
  30
0
  11
200,00
  21
3978,00
  31
0
  0
LINE
  8
EIGENE_EINRICHTUNG
  6
CONTINOUS
  10
200,00
  20
3977,92
  30
0
  11
200,00
  21
3978,00
  31
0
  0
TEXT
  8
BESCHREIBUNGEN
  1
\U+005A\U+0075
  10
239,38
  20
3903,92
  30
0
  11
272,62
  21
3903,92
  31
0
  40
36,00
  50
0
  72
5
  73
0
  210
0,00
  220
0,00
  230
1,00
  0
LINE
  8
BEDIENUNGSFREIRAUM
  6
CONTINOUS
  10
0,00
  20
4957,92
  30
0
  11
0,00
  21
4107,92
  31
0
  0
LINE
  8
BEDIENUNGSFREIRAUM
  6
CONTINOUS
  10
800,00
  20
4957,92
  30
0
  11
800,00
  21
4107,92
  31
0
  0
LINE
  8
BEDIENUNGSFREIRAUM
  6
CONTINOUS
  10
0,00
  20
4957,92
  30
0
  11
800,00
  21
4957,92
  31
0
  0
LINE
  8
BEDIENUNGSFREIRAUM
  6
CONTINOUS
  10
0,00
  20
4957,92
  30
0
  11
0,00
  21
4957,92
  31
0
  0
LINE
  8
BEDIENUNGSFREIRAUM
  6
CONTINOUS
  10
800,00
  20
4957,92
  30
0
  11
800,00
  21
4957,92
  31
0
  0
LINE
  8
BEDIENUNGSFREIRAUM
  6
CONTINOUS
  10
0,00
  20
4957,92
  30
0
  11
800,00
  21
4957,92
  31
0
  0
LINE
  8
BEDIENUNGSFREIRAUM
  6
CONTINOUS
  10
200,00
  20
4957,92
  30
0
  11
800,00
  21
4957,92
  31
0
  0
LINE
  8
BEDIENUNGSFREIRAUM
  6
CONTINOUS
  10
400,00
  20
4957,92
  30
0
  11
800,00
  21
4957,92
  31
0
  0
LINE
  8
BEDIENUNGSFREIRAUM
  6
CONTINOUS
  10
600,00
  20
4957,92
  30
0
  11
800,00
  21
4957,92
  31
0
  0
LINE
  8
BEDIENUNGSFREIRAUM
  6
CONTINOUS
  10
800,00
  20
4957,92
  30
0
  11
800,00
  21
4957,92
  31
0
  0
LINE
  8
BEDIENUNGSFREIRAUM
  6
CONTINOUS
  10
800,00
  20
4957,92
  30
0
  11
800,00
  21
4107,92
  31
0
  0
LINE
  8
BEDIENUNGSFREIRAUM
  6
CONTINOUS
  10
800,00
  20
4757,92
  30
0
  11
800,00
  21
4107,92
  31
0
  0
LINE
  8
BEDIENUNGSFREIRAUM
  6
CONTINOUS
  10
800,00
  20
4557,92
  30
0
  11
800,00
  21
4107,92
  31
0
  0
LINE
  8
BEDIENUNGSFREIRAUM
  6
CONTINOUS
  10
800,00
  20
4357,92
  30
0
  11
800,00
  21
4107,92
  31
0
  0
LINE
  8
BEDIENUNGSFREIRAUM
  6
CONTINOUS
  10
800,00
  20
4157,92
  30
0
  11
800,00
  21
4107,92
  31
0
  0
LINE
  8
BEDIENUNGSFREIRAUM
  6
CONTINOUS
  10
0,00
  20
4757,92
  30
0
  11
200,00
  21
4957,92
  31
0
  0
LINE
  8
BEDIENUNGSFREIRAUM
  6
CONTINOUS
  10
0,00
  20
4557,92
  30
0
  11
400,00
  21
4957,92
  31
0
  0
LINE
  8
BEDIENUNGSFREIRAUM
  6
CONTINOUS
  10
0,00
  20
4357,92
  30
0
  11
600,00
  21
4957,92
  31
0
  0
LINE
  8
BEDIENUNGSFREIRAUM
  6
CONTINOUS
  10
0,00
  20
4157,92
  30
0
  11
800,00
  21
4957,92
  31
0
  0
LINE
  8
BEDIENUNGSFREIRAUM
  6
CONTINOUS
  10
150,00
  20
4107,92
  30
0
  11
800,00
  21
4757,92
  31
0
  0
LINE
  8
BEDIENUNGSFREIRAUM
  6
CONTINOUS
  10
350,00
  20
4107,92
  30
0
  11
800,00
  21
4557,92
  31
0
  0
LINE
  8
BEDIENUNGSFREIRAUM
  6
CONTINOUS
  10
550,00
  20
4107,92
  30
0
  11
800,00
  21
4357,92
  31
0
  0
LINE
  8
BEDIENUNGSFREIRAUM
  6
CONTINOUS
  10
750,00
  20
4107,92
  30
0
  11
800,00
  21
4157,92
  31
0
  0
LINE
  8
BEDIENUNGSFREIRAUM
  6
CONTINOUS
  10
-300,00
  20
3442,92
  30
0
  11
0,00
  21
3442,92
  31
0
  0
LINE
  8
BEDIENUNGSFREIRAUM
  6
CONTINOUS
  10
-300,00
  20
4067,92
  30
0
  11
0,00
  21
4067,92
  31
0
  0
LINE
  8
BEDIENUNGSFREIRAUM
  6
CONTINOUS
  10
-300,00
  20
3442,92
  30
0
  11
-300,00
  21
4067,92
  31
0
  0
LINE
  8
BEDIENUNGSFREIRAUM
  6
CONTINOUS
  10
-300,00
  20
3442,92
  30
0
  11
-300,00
  21
3442,92
  31
0
  0
LINE
  8
BEDIENUNGSFREIRAUM
  6
CONTINOUS
  10
-300,00
  20
4067,92
  30
0
  11
-300,00
  21
4067,92
  31
0
  0
LINE
  8
BEDIENUNGSFREIRAUM
  6
CONTINOUS
  10
-300,00
  20
3442,92
  30
0
  11
-300,00
  21
4067,92
  31
0
  0
LINE
  8
BEDIENUNGSFREIRAUM
  6
CONTINOUS
  10
-300,00
  20
3642,92
  30
0
  11
-300,00
  21
4067,92
  31
0
  0
LINE
  8
BEDIENUNGSFREIRAUM
  6
CONTINOUS
  10
-300,00
  20
3842,92
  30
0
  11
-300,00
  21
4067,92
  31
0
  0
LINE
  8
BEDIENUNGSFREIRAUM
  6
CONTINOUS
  10
-300,00
  20
4042,92
  30
0
  11
-300,00
  21
4067,92
  31
0
  0
LINE
  8
BEDIENUNGSFREIRAUM
  6
CONTINOUS
  10
-300,00
  20
4067,92
  30
0
  11
0,00
  21
4067,92
  31
0
  0
LINE
  8
BEDIENUNGSFREIRAUM
  6
CONTINOUS
  10
-100,00
  20
4067,92
  30
0
  11
0,00
  21
4067,92
  31
0
  0
LINE
  8
BEDIENUNGSFREIRAUM
  6
CONTINOUS
  10
-100,00
  20
3442,92
  30
0
  11
-300,00
  21
3642,92
  31
0
  0
LINE
  8
BEDIENUNGSFREIRAUM
  6
CONTINOUS
  10
0,00
  20
3542,92
  30
0
  11
-300,00
  21
3842,92
  31
0
  0
LINE
  8
BEDIENUNGSFREIRAUM
  6
CONTINOUS
  10
0,00
  20
3742,92
  30
0
  11
-300,00
  21
4042,92
  31
0
  0
LINE
  8
BEDIENUNGSFREIRAUM
  6
CONTINOUS
  10
0,00
  20
3942,92
  30
0
  11
-125,00
  21
4067,92
  31
0
  0
LINE
  8
BEDIENUNGSFREIRAUM
  6
CONTINOUS
  10
1100,00
  20
4067,92
  30
0
  11
800,00
  21
4067,92
  31
0
  0
LINE
  8
BEDIENUNGSFREIRAUM
  6
CONTINOUS
  10
1100,00
  20
3442,92
  30
0
  11
800,00
  21
3442,92
  31
0
  0
LINE
  8
BEDIENUNGSFREIRAUM
  6
CONTINOUS
  10
1100,00
  20
4067,92
  30
0
  11
1100,00
  21
3442,92
  31
0
  0
LINE
  8
BEDIENUNGSFREIRAUM
  6
CONTINOUS
  10
1100,00
  20
4067,92
  30
0
  11
1100,00
  21
4067,92
  31
0
  0
LINE
  8
BEDIENUNGSFREIRAUM
  6
CONTINOUS
  10
1100,00
  20
3442,92
  30
0
  11
1100,00
  21
3442,92
  31
0
  0
LINE
  8
BEDIENUNGSFREIRAUM
  6
CONTINOUS
  10
1100,00
  20
4067,92
  30
0
  11
1100,00
  21
3442,92
  31
0
  0
LINE
  8
BEDIENUNGSFREIRAUM
  6
CONTINOUS
  10
1100,00
  20
3867,92
  30
0
  11
1100,00
  21
3442,92
  31
0
  0
LINE
  8
BEDIENUNGSFREIRAUM
  6
CONTINOUS
  10
1100,00
  20
3667,92
  30
0
  11
1100,00
  21
3442,92
  31
0
  0
LINE
  8
BEDIENUNGSFREIRAUM
  6
CONTINOUS
  10
1100,00
  20
3467,92
  30
0
  11
1100,00
  21
3442,92
  31
0
  0
LINE
  8
BEDIENUNGSFREIRAUM
  6
CONTINOUS
  10
1100,00
  20
3442,92
  30
0
  11
800,00
  21
3442,92
  31
0
  0
LINE
  8
BEDIENUNGSFREIRAUM
  6
CONTINOUS
  10
900,00
  20
3442,92
  30
0
  11
800,00
  21
3442,92
  31
0
  0
LINE
  8
BEDIENUNGSFREIRAUM
  6
CONTINOUS
  10
900,00
  20
4067,92
  30
0
  11
1100,00
  21
3867,92
  31
0
  0
LINE
  8
BEDIENUNGSFREIRAUM
  6
CONTINOUS
  10
800,00
  20
3967,92
  30
0
  11
1100,00
  21
3667,92
  31
0
  0
LINE
  8
BEDIENUNGSFREIRAUM
  6
CONTINOUS
  10
800,00
  20
3767,92
  30
0
  11
1100,00
  21
3467,92
  31
0
  0
LINE
  8
BEDIENUNGSFREIRAUM
  6
CONTINOUS
  10
800,00
  20
3567,92
  30
0
  11
925,00
  21
3442,92
  31
0
  0
3DFACE
  8
EIGENE_EINRICHTUNG
  10
0,00
  20
4107,92
  30
0
  11
0,00
  21
4107,92
  31
0
  12
800,00
  22
4107,92
  32
0
  13
800,00
  23
4107,92
  33
0
  0
3DFACE
  8
EIGENE_EINRICHTUNG
  10
0,00
  20
4072,92
  30
0
  11
0,00
  21
4072,92
  31
0
  12
800,00
  22
4072,92
  32
0
  13
800,00
  23
4072,92
  33
0
  0
3DFACE
  8
EIGENE_EINRICHTUNG
  10
0,00
  20
4107,92
  30
0
  11
0,00
  21
4107,92
  31
0
  12
0,00
  22
4072,92
  32
0
  13
0,00
  23
4072,92
  33
0
  0
3DFACE
  8
EIGENE_EINRICHTUNG
  10
800,00
  20
4107,92
  30
0
  11
800,00
  21
4107,92
  31
0
  12
800,00
  22
4072,92
  32
0
  13
800,00
  23
4072,92
  33
0
  0
3DFACE
  8
EIGENE_EINRICHTUNG
  10
0,00
  20
4107,92
  30
0
  11
800,00
  21
4107,92
  31
0
  12
800,00
  22
4072,92
  32
0
  13
0,00
  23
4072,92
  33
0
  0
3DFACE
  8
EIGENE_EINRICHTUNG
  10
0,00
  20
4107,92
  30
0
  11
800,00
  21
4107,92
  31
0
  12
800,00
  22
4072,92
  32
0
  13
0,00
  23
4072,92
  33
0
  0
3DFACE
  8
EIGENE_EINRICHTUNG
  70
12
  10
0,00
  20
4067,92
  30
0
  11
60,00
  21
4067,92
  12
50,00
  22
4067,92
  32
0
  13
50,00
  23
4067,92
  33
0
  0
3DFACE
  8
EIGENE_EINRICHTUNG
  70
5
  10
0,00
  20
4067,92
  30
0
  11
50,00
  21
4067,92
  12
0,00
  22
4067,92
  32
0
  13
0,00
  23
4067,92
  33
0
  0
3DFACE
  8
EIGENE_EINRICHTUNG
  70
12
  10
740,00
  20
4067,92
  30
0
  11
800,00
  21
4067,92
  12
800,00
  22
4067,92
  32
0
  13
800,00
  23
4067,92
  33
0
  0
3DFACE
  8
EIGENE_EINRICHTUNG
  70
5
  10
740,00
  20
4067,92
  30
0
  11
800,00
  21
4067,92
  12
750,00
  22
4067,92
  32
0
  13
750,00
  23
4067,92
  33
0
  0
3DFACE
  8
EIGENE_EINRICHTUNG
  70
12
  10
0,00
  20
3492,92
  30
0
  11
60,00
  21
3492,92
  12
50,00
  22
3492,92
  32
0
  13
50,00
  23
3492,92
  33
0
  0
3DFACE
  8
EIGENE_EINRICHTUNG
  70
5
  10
0,00
  20
3492,92
  30
0
  11
50,00
  21
3492,92
  12
0,00
  22
3492,92
  32
0
  13
0,00
  23
3492,92
  33
0
  0
3DFACE
  8
EIGENE_EINRICHTUNG
  70
12
  10
740,00
  20
3492,92
  30
0
  11
800,00
  21
3492,92
  12
800,00
  22
3492,92
  32
0
  13
800,00
  23
3492,92
  33
0
  0
3DFACE
  8
EIGENE_EINRICHTUNG
  70
5
  10
740,00
  20
3492,92
  30
0
  11
800,00
  21
3492,92
  12
750,00
  22
3492,92
  32
0
  13
750,00
  23
3492,92
  33
0
  0
ENDBLK
  0
ENDSEC
  0
SECTION
  2
ENTITIES
  0
INSERT
  2
GERAT_1-21712-112341_M
  8
EIGENE_EINRICHTUNG
  10
0,0
  20
0,0
  30
0
  0
INSERT
  2
GERAT_1-21712-112341_L
  8
EIGENE_EINRICHTUNG
  10
0,0
  20
0,0
  30
0
  0
INSERT
  2
GERAT_1-21712-112341_R
  8
EIGENE_EINRICHTUNG
  10
0,0
  20
0,0
  30
0
  0
INSERT
  2
GERAT_1-21712-112341_T
  8
EIGENE_EINRICHTUNG
  10
0,0
  20
0,0
  30
0
  0
INSERT
  2
GERAT_1-21712-112341_B
  8
EIGENE_EINRICHTUNG
  10
0,0
  20
0,0
  30
0
  0
ENDSEC
  0
EOF
